Cevaplar

2012-10-30T20:34:37+02:00

flütte;

la-si-i.do-si-la-sol-sol-la-si-si-la-sol-la

gitarda;

e--0-5-0-1---------3---0-----------1-0-----------------3-1-0---------------
B----------3---3-3---3---3-1---1-1-----3-1-0-----0-1-3---------------------
G--------------------------------------------------------------------------
D--------------------------------------------------------------------------
A--------------------------------------------------------------------------
E--------------------------------------------------------------------------


e--0-5-0-1---------3---0-----------1-0---------------0---------------------
B----------3---3-3---3---3-1---1-1-----3-1-0---0-0-3---1-0-----------------
G----------------------------------------------------------2---------------
D--------------------------------------------------------------------------
A--------------------------------------------------------------------------
E--------------------------------------------------------------------------

e--------------------------------------------------------------------------
B------0-1-3-1-0---0-3-1-0----------------0-1-3-1-0---0-3-1-0--------------
G--2-2---------------------2-1--------2-2---------------------2-1-2-------- X2
D------------------------------3-2----------------------------------------- 
A--------------------------------------------------------------------------  
E--------------------------------------------------------------------------  piyanoyu bulamadım


0
2012-10-30T23:02:32+02:00


la-si-i.do-si-la-sol-sol-la-si-si-la-sol-la

Kalın İstemeyenler İçin

re-mi-fa-mi-re-do-do-re-mi-mi-re-do-re

2 3 2